ISO-10303-21;
HEADER;
FILE_DESCRIPTION (( 'STEP AP203' ),
    '1' );
FILE_NAME ('Q-AZHWP-20-1064-M.STEP',
    '2020-12-22T09:07:56',
    ( '' ),
    ( '' ),
    'SwSTEP 2.0',
    'SolidWorks 2020',
    '' );
FILE_SCHEMA (( 'CONFIG_CONTROL_DESIGN' ));
ENDSEC;

DATA;
#1 = AXIS2_PLACEMENT_3D ( 'NONE', #282, #23, #51 ) ;
#2 = ADVANCED_FACE ( 'NONE', ( #158 ), #239, .F. ) ;
#3 = VECTOR ( 'NONE', #86, 1000.000000000000000 ) ;
#4 = PERSON_AND_ORGANIZATION_ROLE ( 'design_owner' ) ;
#5 = EDGE_LOOP ( 'NONE', ( #119, #234 ) ) ;
#6 = CARTESIAN_POINT ( 'NONE',  ( -1.614212418857619014, 1.224646799147353256E-15, -10.00000000000000000 ) ) ;
#7 = AXIS2_PLACEMENT_3D ( 'NONE', #175, #26, #311 ) ;
#8 = EDGE_CURVE ( 'NONE', #105, #306, #156, .T. ) ;
#9 = DIRECTION ( 'NONE',  ( -1.000000000000000000, -0.000000000000000000, -0.000000000000000000 ) ) ;
#10 = CYLINDRICAL_SURFACE ( 'NONE', #188, 12.69999999999999929 ) ;
#11 = DIRECTION ( 'NONE',  ( -1.000000000000000000, -0.000000000000000000, -0.000000000000000000 ) ) ;
#12 = CARTESIAN_POINT ( 'NONE',  ( 3.000000000000000000, 0.000000000000000000, 0.000000000000000000 ) ) ;
#13 = PERSON_AND_ORGANIZATION ( #193, #94 ) ;
#14 = APPROVAL_STATUS ( 'not_yet_approved' ) ;
#15 = CC_DESIGN_APPROVAL ( #123, ( #177 ) ) ;
#16 = PERSON_AND_ORGANIZATION_ROLE ( 'creator' ) ;
#17 = ORIENTED_EDGE ( 'NONE', *, *, #28, .T. ) ;
#18 = CC_DESIGN_PERSON_AND_ORGANIZATION_ASSIGNMENT ( #168, #16, ( #82 ) ) ;
#19 = CARTESIAN_POINT ( 'NONE',  ( -3.000000000000000000, 1.555301434917138433E-15, -12.69999999999999929 ) ) ;
#20 = VERTEX_POINT ( 'NONE', #210 ) ;
#21 = PLANE ( 'NONE',  #224 ) ;
#22 = ORIENTED_EDGE ( 'NONE', *, *, #139, .F. ) ;
#23 = DIRECTION ( 'NONE',  ( 0.000000000000000000, 0.000000000000000000, 1.000000000000000000 ) ) ;
#24 = ORIENTED_EDGE ( 'NONE', *, *, #140, .F. ) ;
#25 = ORIENTED_EDGE ( 'NONE', *, *, #35, .T. ) ;
#26 = DIRECTION ( 'NONE',  ( -1.000000000000000000, -0.000000000000000000, -0.000000000000000000 ) ) ;
#27 = ORIENTED_EDGE ( 'NONE', *, *, #64, .F. ) ;
#28 = EDGE_CURVE ( 'NONE', #45, #281, #274, .T. ) ;
#29 = CYLINDRICAL_SURFACE ( 'NONE', #144, 10.00000000000000000 ) ;
#30 = LOCAL_TIME ( 17, 7, 56.00000000000000000, #297 ) ;
#31 = ADVANCED_FACE ( 'NONE', ( #185, #288 ), #283, .F. ) ;
#32 = FACE_OUTER_BOUND ( 'NONE', #271, .T. ) ;
#33 = CARTESIAN_POINT ( 'NONE',  ( -1.614212418857619014, 0.000000000000000000, 0.000000000000000000 ) ) ;
#34 = AXIS2_PLACEMENT_3D ( 'NONE', #173, #252, #251 ) ;
#35 = EDGE_CURVE ( 'NONE', #70, #20, #49, .T. ) ;
#36 = DATE_AND_TIME ( #325, #199 ) ;
#37 = ADVANCED_FACE ( 'NONE', ( #241 ), #212, .T. ) ;
#38 = COORDINATED_UNIVERSAL_TIME_OFFSET ( 8, 0, .AHEAD. ) ;
#39 = DIRECTION ( 'NONE',  ( -1.000000000000000000, -0.000000000000000000, -0.000000000000000000 ) ) ;
#40 = AXIS2_PLACEMENT_3D ( 'NONE', #329, #151, #223 ) ;
#41 = APPROVAL_DATE_TIME ( #97, #123 ) ;
#42 = DIRECTION ( 'NONE',  ( 0.000000000000000000, 0.000000000000000000, 1.000000000000000000 ) ) ;
#43 = APPROVAL_ROLE ( '' ) ;
#44 = EDGE_CURVE ( 'NONE', #131, #46, #112, .T. ) ;
#45 = VERTEX_POINT ( 'NONE', #221 ) ;
#46 = VERTEX_POINT ( 'NONE', #165 ) ;
#47 =( NAMED_UNIT ( * ) PLANE_ANGLE_UNIT ( ) SI_UNIT ( $, .RADIAN. ) );
#48 = ORIENTED_EDGE ( 'NONE', *, *, #220, .F. ) ;
#49 = CIRCLE ( 'NONE', #114, 12.69999999999999929 ) ;
#50 = CC_DESIGN_PERSON_AND_ORGANIZATION_ASSIGNMENT ( #95, #247, ( #218 ) ) ;
#51 = DIRECTION ( 'NONE',  ( 1.000000000000000000, 0.000000000000000000, 0.000000000000000000 ) ) ;
#52 = EDGE_LOOP ( 'NONE', ( #150, #73 ) ) ;
#53 = CARTESIAN_POINT ( 'NONE',  ( -1.614212418857619014, 0.000000000000000000, 0.000000000000000000 ) ) ;
#54 = VERTEX_POINT ( 'NONE', #292 ) ;
#55 = CC_DESIGN_APPROVAL ( #179, ( #82 ) ) ;
#56 = ORIENTED_EDGE ( 'NONE', *, *, #197, .F. ) ;
#57 = DIRECTION ( 'NONE',  ( -1.000000000000000000, -0.000000000000000000, -0.000000000000000000 ) ) ;
#58 = CYLINDRICAL_SURFACE ( 'NONE', #200, 10.00000000000000000 ) ;
#59 = DIRECTION ( 'NONE',  ( 0.000000000000000000, 0.000000000000000000, 1.000000000000000000 ) ) ;
#60 = CIRCLE ( 'NONE', #184, 10.00000000000000000 ) ;
#61 = AXIS2_PLACEMENT_3D ( 'NONE', #178, #260, #238 ) ;
#62 = LINE ( 'NONE', #267, #3 ) ;
#63 = DIRECTION ( 'NONE',  ( -1.000000000000000000, -0.000000000000000000, -0.000000000000000000 ) ) ;
#64 = EDGE_CURVE ( 'NONE', #181, #77, #286, .T. ) ;
#65 = APPROVAL_ROLE ( '' ) ;
#66 = APPROVAL_STATUS ( 'not_yet_approved' ) ;
#67 = DIRECTION ( 'NONE',  ( 0.000000000000000000, 0.000000000000000000, 1.000000000000000000 ) ) ;
#68 = EDGE_LOOP ( 'NONE', ( #22, #25, #155, #27 ) ) ;
#69 = FACE_OUTER_BOUND ( 'NONE', #176, .T. ) ;
#70 = VERTEX_POINT ( 'NONE', #194 ) ;
#71 = APPROVAL_DATE_TIME ( #36, #186 ) ;
#72 = PLANE ( 'NONE',  #255 ) ;
#73 = ORIENTED_EDGE ( 'NONE', *, *, #135, .T. ) ;
#74 = CARTESIAN_POINT ( 'NONE',  ( -1.614212418857619014, 0.000000000000000000, 10.00000000000000000 ) ) ;
#75 = CARTESIAN_POINT ( 'NONE',  ( -2.500000000000000444, 0.000000000000000000, 0.000000000000000000 ) ) ;
#76 = EDGE_CURVE ( 'NONE', #281, #45, #60, .T. ) ;
#77 = VERTEX_POINT ( 'NONE', #91 ) ;
#78 = AXIS2_PLACEMENT_3D ( 'NONE', #294, #245, #316 ) ;
#79 = MECHANICAL_CONTEXT ( 'NONE', #246, 'mechanical' ) ;
#80 = ORIENTED_EDGE ( 'NONE', *, *, #44, .T. ) ;
#81 = PRODUCT ( 'Q-AZHWP-20-1064-M', 'Q-AZHWP-20-1064-M', '', ( #79 ) ) ;
#82 = PRODUCT_DEFINITION ( 'UNKNOWN', '', #218, #89 ) ;
#83 = FACE_OUTER_BOUND ( 'NONE', #152, .T. ) ;
#84 = ORIENTED_EDGE ( 'NONE', *, *, #135, .F. ) ;
#85 = EDGE_LOOP ( 'NONE', ( #203, #154 ) ) ;
#86 = DIRECTION ( 'NONE',  ( -1.000000000000000000, -0.000000000000000000, -0.000000000000000000 ) ) ;
#87 = CARTESIAN_POINT ( 'NONE',  ( -2.500000000000000444, 0.000000000000000000, 0.000000000000000000 ) ) ;
#88 = CARTESIAN_POINT ( 'NONE',  ( 2.500000000000000888, 0.000000000000000000, 0.000000000000000000 ) ) ;
#89 = DESIGN_CONTEXT ( 'detailed design', #127, 'design' ) ;
#90 = EDGE_CURVE ( 'NONE', #20, #77, #62, .T. ) ;
#91 = CARTESIAN_POINT ( 'NONE',  ( -3.000000000000000000, 0.000000000000000000, 12.69999999999999929 ) ) ;
#92 = AXIS2_PLACEMENT_3D ( 'NONE', #137, #266, #169 ) ;
#93 = CIRCLE ( 'NONE', #307, 12.69999999999999929 ) ;
#94 = ORGANIZATION ( 'UNSPECIFIED', 'UNSPECIFIED', '' ) ;
#95 = PERSON_AND_ORGANIZATION ( #193, #94 ) ;
#96 = CALENDAR_DATE ( 2020, 22, 12 ) ;
#97 = DATE_AND_TIME ( #172, #164 ) ;
#98 = ADVANCED_FACE ( 'NONE', ( #162 ), #58, .F. ) ;
#99 = DATE_AND_TIME ( #248, #30 ) ;
#100 = DIRECTION ( 'NONE',  ( -1.000000000000000000, 0.000000000000000000, -0.000000000000000000 ) ) ;
#101 = DIRECTION ( 'NONE',  ( 0.000000000000000000, 0.000000000000000000, -1.000000000000000000 ) ) ;
#102 = DIRECTION ( 'NONE',  ( 0.000000000000000000, 0.000000000000000000, 1.000000000000000000 ) ) ;
#103 = ORIENTED_EDGE ( 'NONE', *, *, #35, .F. ) ;
#104 = APPLICATION_PROTOCOL_DEFINITION ( 'international standard', 'config_control_design', 1994, #246 ) ;
#105 = VERTEX_POINT ( 'NONE', #317 ) ;
#106 = ORIENTED_EDGE ( 'NONE', *, *, #44, .F. ) ;
#107 = DIRECTION ( 'NONE',  ( 1.000000000000000000, 0.000000000000000000, 0.000000000000000000 ) ) ;
#108 = AXIS2_PLACEMENT_3D ( 'NONE', #75, #314, #101 ) ;
#109 = DIRECTION ( 'NONE',  ( -1.000000000000000000, -0.000000000000000000, -0.000000000000000000 ) ) ;
#110 = CC_DESIGN_DATE_AND_TIME_ASSIGNMENT ( #201, #270, ( #82 ) ) ;
#111 = CARTESIAN_POINT ( 'NONE',  ( -1.614212418857619014, 0.000000000000000000, 0.000000000000000000 ) ) ;
#112 = LINE ( 'NONE', #115, #310 ) ;
#113 = CC_DESIGN_PERSON_AND_ORGANIZATION_ASSIGNMENT ( #328, #228, ( #218 ) ) ;
#114 = AXIS2_PLACEMENT_3D ( 'NONE', #12, #63, #142 ) ;
#115 = CARTESIAN_POINT ( 'NONE',  ( -1.614212418857619014, 0.000000000000000000, 10.00000000000000000 ) ) ;
#116 = DIRECTION ( 'NONE',  ( -1.000000000000000000, 0.000000000000000000, -0.000000000000000000 ) ) ;
#117 = APPROVAL_STATUS ( 'not_yet_approved' ) ;
#118 = DIRECTION ( 'NONE',  ( -1.000000000000000000, -0.000000000000000000, -0.000000000000000000 ) ) ;
#119 = ORIENTED_EDGE ( 'NONE', *, *, #293, .T. ) ;
#120 = DATE_TIME_ROLE ( 'classification_date' ) ;
#121 = APPROVAL_DATE_TIME ( #250, #179 ) ;
#122 = ORIENTED_EDGE ( 'NONE', *, *, #240, .T. ) ;
#123 = APPROVAL ( #66, 'UNSPECIFIED' ) ;
#124 = ORIENTED_EDGE ( 'NONE', *, *, #90, .F. ) ;
#125 =( NAMED_UNIT ( * ) SI_UNIT ( $, .STERADIAN. ) SOLID_ANGLE_UNIT ( ) );
#126 = ORIENTED_EDGE ( 'NONE', *, *, #139, .T. ) ;
#127 = APPLICATION_CONTEXT ( 'configuration controlled 3d designs of mechanical parts and assemblies' ) ;
#128 = CYLINDRICAL_SURFACE ( 'NONE', #182, 10.00000000000000000 ) ;
#129 = EDGE_LOOP ( 'NONE', ( #17, #208, #122, #56 ) ) ;
#130 = FACE_OUTER_BOUND ( 'NONE', #326, .T. ) ;
#131 = VERTEX_POINT ( 'NONE', #215 ) ;
#132 = EDGE_CURVE ( 'NONE', #281, #312, #242, .T. ) ;
#133 = VECTOR ( 'NONE', #187, 1000.000000000000000 ) ;
#134 = ORIENTED_EDGE ( 'NONE', *, *, #240, .F. ) ;
#135 = EDGE_CURVE ( 'NONE', #105, #131, #232, .T. ) ;
#136 = CARTESIAN_POINT ( 'NONE',  ( -1.614212418857619014, 0.000000000000000000, 0.000000000000000000 ) ) ;
#137 = CARTESIAN_POINT ( 'NONE',  ( 2.999999999999999112, 0.000000000000000000, 0.000000000000000000 ) ) ;
#138 = DIRECTION ( 'NONE',  ( -1.000000000000000000, -0.000000000000000000, -0.000000000000000000 ) ) ;
#139 = EDGE_CURVE ( 'NONE', #70, #181, #243, .T. ) ;
#140 = EDGE_CURVE ( 'NONE', #46, #306, #214, .T. ) ;
#141 = AXIS2_PLACEMENT_3D ( 'NONE', #53, #157, #259 ) ;
#142 = DIRECTION ( 'NONE',  ( 0.000000000000000000, 0.000000000000000000, 1.000000000000000000 ) ) ;
#143 = ADVANCED_FACE ( 'NONE', ( #191 ), #29, .F. ) ;
#144 = AXIS2_PLACEMENT_3D ( 'NONE', #136, #109, #59 ) ;
#145 = SHAPE_DEFINITION_REPRESENTATION ( #279, #324 ) ;
#146 = PRODUCT_RELATED_PRODUCT_CATEGORY ( 'detail', '', ( #81 ) ) ;
#147 = COORDINATED_UNIVERSAL_TIME_OFFSET ( 8, 0, .AHEAD. ) ;
#148 = MANIFOLD_SOLID_BREP ( 'Ðý×', #206 ) ;
#149 = ORIENTED_EDGE ( 'NONE', *, *, #8, .F. ) ;
#150 = ORIENTED_EDGE ( 'NONE', *, *, #166, .T. ) ;
#151 = DIRECTION ( 'NONE',  ( -1.000000000000000000, -0.000000000000000000, -0.000000000000000000 ) ) ;
#152 = EDGE_LOOP ( 'NONE', ( #254, #257, #237, #249 ) ) ;
#153 = CARTESIAN_POINT ( 'NONE',  ( -1.614212418857619014, 0.000000000000000000, 0.000000000000000000 ) ) ;
#154 = ORIENTED_EDGE ( 'NONE', *, *, #76, .F. ) ;
#155 = ORIENTED_EDGE ( 'NONE', *, *, #90, .T. ) ;
#156 = LINE ( 'NONE', #6, #192 ) ;
#157 = DIRECTION ( 'NONE',  ( -1.000000000000000000, -0.000000000000000000, -0.000000000000000000 ) ) ;
#158 = FACE_OUTER_BOUND ( 'NONE', #85, .T. ) ;
#159 = ADVANCED_FACE ( 'NONE', ( #32 ), #10, .T. ) ;
#160 = CYLINDRICAL_SURFACE ( 'NONE', #141, 10.00000000000000000 ) ;
#161 =( LENGTH_UNIT ( ) NAMED_UNIT ( * ) SI_UNIT ( .MILLI., .METRE. ) );
#162 = FACE_OUTER_BOUND ( 'NONE', #205, .T. ) ;
#163 = CIRCLE ( 'NONE', #334, 10.00000000000000000 ) ;
#164 = LOCAL_TIME ( 17, 7, 56.00000000000000000, #170 ) ;
#165 = CARTESIAN_POINT ( 'NONE',  ( 2.500000000000000888, 0.000000000000000000, 10.00000000000000000 ) ) ;
#166 = EDGE_CURVE ( 'NONE', #131, #105, #332, .T. ) ;
#167 = CARTESIAN_POINT ( 'NONE',  ( -1.614212418857619014, 1.555301434917138433E-15, -12.69999999999999929 ) ) ;
#168 = PERSON_AND_ORGANIZATION ( #193, #94 ) ;
#169 = DIRECTION ( 'NONE',  ( 0.000000000000000000, 0.000000000000000000, 1.000000000000000000 ) ) ;
#170 = COORDINATED_UNIVERSAL_TIME_OFFSET ( 8, 0, .AHEAD. ) ;
#171 = ORIENTED_EDGE ( 'NONE', *, *, #304, .F. ) ;
#172 = CALENDAR_DATE ( 2020, 22, 12 ) ;
#173 = CARTESIAN_POINT ( 'NONE',  ( -3.000000000000000444, 0.000000000000000000, 0.000000000000000000 ) ) ;
#174 = AXIS2_PLACEMENT_3D ( 'NONE', #309, #107, #315 ) ;
#175 = CARTESIAN_POINT ( 'NONE',  ( -3.000000000000000444, 0.000000000000000000, 0.000000000000000000 ) ) ;
#176 = EDGE_LOOP ( 'NONE', ( #48, #103 ) ) ;
#177 = SECURITY_CLASSIFICATION ( '', '', #196 ) ;
#178 = CARTESIAN_POINT ( 'NONE',  ( -2.500000000000000444, 10.00000000000000000, 0.000000000000000000 ) ) ;
#179 = APPROVAL ( #14, 'UNSPECIFIED' ) ;
#180 = DIRECTION ( 'NONE',  ( -0.000000000000000000, 0.000000000000000000, 1.000000000000000000 ) ) ;
#181 = VERTEX_POINT ( 'NONE', #19 ) ;
#182 = AXIS2_PLACEMENT_3D ( 'NONE', #153, #57, #102 ) ;
#183 = DIRECTION ( 'NONE',  ( -1.000000000000000000, -0.000000000000000000, -0.000000000000000000 ) ) ;
#184 = AXIS2_PLACEMENT_3D ( 'NONE', #87, #320, #289 ) ;
#185 = FACE_BOUND ( 'NONE', #233, .T. ) ;
#186 = APPROVAL ( #117, 'UNSPECIFIED' ) ;
#187 = DIRECTION ( 'NONE',  ( -1.000000000000000000, -0.000000000000000000, -0.000000000000000000 ) ) ;
#188 = AXIS2_PLACEMENT_3D ( 'NONE', #111, #229, #42 ) ;
#189 = DIRECTION ( 'NONE',  ( 0.000000000000000000, 0.000000000000000000, 1.000000000000000000 ) ) ;
#190 = CC_DESIGN_SECURITY_CLASSIFICATION ( #177, ( #218 ) ) ;
#191 = FACE_OUTER_BOUND ( 'NONE', #285, .T. ) ;
#192 = VECTOR ( 'NONE', #333, 1000.000000000000000 ) ;
#193 = PERSON ( 'UNSPECIFIED', 'UNSPECIFIED', 'UNSPECIFIED', ('UNSPECIFIED'), ('UNSPECIFIED'), ('UNSPECIFIED') ) ;
#194 = CARTESIAN_POINT ( 'NONE',  ( 3.000000000000000000, 1.555301434917138433E-15, -12.69999999999999929 ) ) ;
#195 = CARTESIAN_POINT ( 'NONE',  ( 2.999999999999999112, 12.69999999999999929, 0.000000000000000000 ) ) ;
#196 = SECURITY_CLASSIFICATION_LEVEL ( 'unclassified' ) ;
#197 = EDGE_CURVE ( 'NONE', #45, #54, #301, .T. ) ;
#198 = FACE_BOUND ( 'NONE', #52, .T. ) ;
#199 = LOCAL_TIME ( 17, 7, 56.00000000000000000, #38 ) ;
#200 = AXIS2_PLACEMENT_3D ( 'NONE', #33, #138, #291 ) ;
#201 = DATE_AND_TIME ( #96, #330 ) ;
#202 = CARTESIAN_POINT ( 'NONE',  ( 2.500000000000000888, 1.224646799147353256E-15, -10.00000000000000000 ) ) ;
#203 = ORIENTED_EDGE ( 'NONE', *, *, #28, .F. ) ;
#204 = CIRCLE ( 'NONE', #216, 12.69999999999999929 ) ;
#205 = EDGE_LOOP ( 'NONE', ( #84, #225, #331, #106 ) ) ;
#206 = CLOSED_SHELL ( 'NONE', ( #159, #258, #98, #275, #143, #318, #31, #37, #217, #2 ) ) ;
#207 = APPLICATION_PROTOCOL_DEFINITION ( 'international standard', 'config_control_design', 1994, #127 ) ;
#208 = ORIENTED_EDGE ( 'NONE', *, *, #132, .T. ) ;
#209 = CARTESIAN_POINT ( 'NONE',  ( -3.000000000000000000, 0.000000000000000000, 0.000000000000000000 ) ) ;
#210 = CARTESIAN_POINT ( 'NONE',  ( 3.000000000000000000, 0.000000000000000000, 12.69999999999999929 ) ) ;
#211 = APPROVAL_PERSON_ORGANIZATION ( #319, #179, #43 ) ;
#212 = CYLINDRICAL_SURFACE ( 'NONE', #78, 12.69999999999999929 ) ;
#213 = DIRECTION ( 'NONE',  ( -1.000000000000000000, -0.000000000000000000, -0.000000000000000000 ) ) ;
#214 = CIRCLE ( 'NONE', #276, 10.00000000000000000 ) ;
#215 = CARTESIAN_POINT ( 'NONE',  ( 2.999999999999999112, 0.000000000000000000, 10.00000000000000000 ) ) ;
#216 = AXIS2_PLACEMENT_3D ( 'NONE', #323, #118, #67 ) ;
#217 = ADVANCED_FACE ( 'NONE', ( #69, #198 ), #72, .F. ) ;
#218 = PRODUCT_DEFINITION_FORMATION_WITH_SPECIFIED_SOURCE ( 'ANY', '', #81, .NOT_KNOWN. ) ;
#219 = DIRECTION ( 'NONE',  ( -1.000000000000000000, -0.000000000000000000, -0.000000000000000000 ) ) ;
#220 = EDGE_CURVE ( 'NONE', #20, #70, #204, .T. ) ;
#221 = CARTESIAN_POINT ( 'NONE',  ( -2.500000000000000444, 0.000000000000000000, 10.00000000000000000 ) ) ;
#222 = PERSON_AND_ORGANIZATION ( #193, #94 ) ;
#223 = DIRECTION ( 'NONE',  ( 0.000000000000000000, 0.000000000000000000, 1.000000000000000000 ) ) ;
#224 = AXIS2_PLACEMENT_3D ( 'NONE', #284, #100, #180 ) ;
#225 = ORIENTED_EDGE ( 'NONE', *, *, #8, .T. ) ;
#226 = FACE_OUTER_BOUND ( 'NONE', #129, .T. ) ;
#227 = CC_DESIGN_PERSON_AND_ORGANIZATION_ASSIGNMENT ( #236, #4, ( #81 ) ) ;
#228 = PERSON_AND_ORGANIZATION_ROLE ( 'design_supplier' ) ;
#229 = DIRECTION ( 'NONE',  ( -1.000000000000000000, -0.000000000000000000, -0.000000000000000000 ) ) ;
#230 = APPROVAL_ROLE ( '' ) ;
#231 = ORIENTED_EDGE ( 'NONE', *, *, #263, .F. ) ;
#232 = CIRCLE ( 'NONE', #92, 10.00000000000000000 ) ;
#233 = EDGE_LOOP ( 'NONE', ( #231, #134 ) ) ;
#234 = ORIENTED_EDGE ( 'NONE', *, *, #64, .T. ) ;
#235 = VECTOR ( 'NONE', #39, 1000.000000000000000 ) ;
#236 = PERSON_AND_ORGANIZATION ( #193, #94 ) ;
#237 = ORIENTED_EDGE ( 'NONE', *, *, #197, .T. ) ;
#238 = DIRECTION ( 'NONE',  ( 0.000000000000000000, 0.000000000000000000, -1.000000000000000000 ) ) ;
#239 = PLANE ( 'NONE',  #61 ) ;
#240 = EDGE_CURVE ( 'NONE', #312, #54, #295, .T. ) ;
#241 = FACE_OUTER_BOUND ( 'NONE', #68, .T. ) ;
#242 = LINE ( 'NONE', #296, #302 ) ;
#243 = LINE ( 'NONE', #167, #133 ) ;
#244 =( GEOMETRIC_REPRESENTATION_CONTEXT ( 3 ) GLOBAL_UNCERTAINTY_ASSIGNED_CONTEXT ( ( #261 ) ) GLOBAL_UNIT_ASSIGNED_CONTEXT ( ( #161, #47, #125 ) ) REPRESENTATION_CONTEXT ( 'NONE', 'WORKASPACE' ) );
#245 = DIRECTION ( 'NONE',  ( -1.000000000000000000, -0.000000000000000000, -0.000000000000000000 ) ) ;
#246 = APPLICATION_CONTEXT ( 'configuration controlled 3d designs of mechanical parts and assemblies' ) ;
#247 = PERSON_AND_ORGANIZATION_ROLE ( 'creator' ) ;
#248 = CALENDAR_DATE ( 2020, 22, 12 ) ;
#249 = ORIENTED_EDGE ( 'NONE', *, *, #263, .T. ) ;
#250 = DATE_AND_TIME ( #303, #280 ) ;
#251 = DIRECTION ( 'NONE',  ( 0.000000000000000000, 0.000000000000000000, 1.000000000000000000 ) ) ;
#252 = DIRECTION ( 'NONE',  ( -1.000000000000000000, -0.000000000000000000, -0.000000000000000000 ) ) ;
#253 = APPROVAL_PERSON_ORGANIZATION ( #222, #186, #230 ) ;
#254 = ORIENTED_EDGE ( 'NONE', *, *, #132, .F. ) ;
#255 = AXIS2_PLACEMENT_3D ( 'NONE', #195, #116, #299 ) ;
#256 = CARTESIAN_POINT ( 'NONE',  ( -2.500000000000000444, 1.224646799147353256E-15, -10.00000000000000000 ) ) ;
#257 = ORIENTED_EDGE ( 'NONE', *, *, #76, .T. ) ;
#258 = ADVANCED_FACE ( 'NONE', ( #226 ), #160, .F. ) ;
#259 = DIRECTION ( 'NONE',  ( 0.000000000000000000, 0.000000000000000000, 1.000000000000000000 ) ) ;
#260 = DIRECTION ( 'NONE',  ( 1.000000000000000000, 0.000000000000000000, 0.000000000000000000 ) ) ;
#261 = UNCERTAINTY_MEASURE_WITH_UNIT (LENGTH_MEASURE( 1.000000000000000082E-05 ), #161, 'distance_accuracy_value', 'NONE');
#262 = ORIENTED_EDGE ( 'NONE', *, *, #140, .T. ) ;
#263 = EDGE_CURVE ( 'NONE', #54, #312, #322, .T. ) ;
#264 = DIRECTION ( 'NONE',  ( 0.000000000000000000, 0.000000000000000000, 1.000000000000000000 ) ) ;
#265 = CC_DESIGN_APPROVAL ( #186, ( #218 ) ) ;
#266 = DIRECTION ( 'NONE',  ( -1.000000000000000000, -0.000000000000000000, -0.000000000000000000 ) ) ;
#267 = CARTESIAN_POINT ( 'NONE',  ( -1.614212418857619014, 0.000000000000000000, 12.69999999999999929 ) ) ;
#268 = CARTESIAN_POINT ( 'NONE',  ( -3.000000000000000000, 0.000000000000000000, 0.000000000000000000 ) ) ;
#269 = COORDINATED_UNIVERSAL_TIME_OFFSET ( 8, 0, .AHEAD. ) ;
#270 = DATE_TIME_ROLE ( 'creation_date' ) ;
#271 = EDGE_LOOP ( 'NONE', ( #277, #126, #300, #124 ) ) ;
#272 = ORIENTED_EDGE ( 'NONE', *, *, #166, .F. ) ;
#273 = AXIS2_PLACEMENT_3D ( 'NONE', #268, #213, #189 ) ;
#274 = CIRCLE ( 'NONE', #108, 10.00000000000000000 ) ;
#275 = ADVANCED_FACE ( 'NONE', ( #130 ), #21, .F. ) ;
#276 = AXIS2_PLACEMENT_3D ( 'NONE', #88, #9, #264 ) ;
#277 = ORIENTED_EDGE ( 'NONE', *, *, #220, .T. ) ;
#278 = CARTESIAN_POINT ( 'NONE',  ( 2.500000000000000888, 0.000000000000000000, 0.000000000000000000 ) ) ;
#279 = PRODUCT_DEFINITION_SHAPE ( 'NONE', 'NONE',  #82 ) ;
#280 = LOCAL_TIME ( 17, 7, 56.00000000000000000, #147 ) ;
#281 = VERTEX_POINT ( 'NONE', #256 ) ;
#282 = CARTESIAN_POINT ( 'NONE',  ( 0.000000000000000000, 0.000000000000000000, 0.000000000000000000 ) ) ;
#283 = PLANE ( 'NONE',  #174 ) ;
#284 = CARTESIAN_POINT ( 'NONE',  ( 2.500000000000000444, 10.00000000000000000, 0.000000000000000000 ) ) ;
#285 = EDGE_LOOP ( 'NONE', ( #149, #272, #80, #262 ) ) ;
#286 = CIRCLE ( 'NONE', #273, 12.69999999999999929 ) ;
#287 = CARTESIAN_POINT ( 'NONE',  ( -3.000000000000000444, 1.224646799147353256E-15, -10.00000000000000000 ) ) ;
#288 = FACE_OUTER_BOUND ( 'NONE', #5, .T. ) ;
#289 = DIRECTION ( 'NONE',  ( 0.000000000000000000, 0.000000000000000000, -1.000000000000000000 ) ) ;
#290 = CC_DESIGN_PERSON_AND_ORGANIZATION_ASSIGNMENT ( #321, #298, ( #177 ) ) ;
#291 = DIRECTION ( 'NONE',  ( 0.000000000000000000, 0.000000000000000000, 1.000000000000000000 ) ) ;
#292 = CARTESIAN_POINT ( 'NONE',  ( -3.000000000000000444, 0.000000000000000000, 10.00000000000000000 ) ) ;
#293 = EDGE_CURVE ( 'NONE', #77, #181, #93, .T. ) ;
#294 = CARTESIAN_POINT ( 'NONE',  ( -1.614212418857619014, 0.000000000000000000, 0.000000000000000000 ) ) ;
#295 = CIRCLE ( 'NONE', #34, 10.00000000000000000 ) ;
#296 = CARTESIAN_POINT ( 'NONE',  ( -1.614212418857619014, 1.224646799147353256E-15, -10.00000000000000000 ) ) ;
#297 = COORDINATED_UNIVERSAL_TIME_OFFSET ( 8, 0, .AHEAD. ) ;
#298 = PERSON_AND_ORGANIZATION_ROLE ( 'classification_officer' ) ;
#299 = DIRECTION ( 'NONE',  ( -0.000000000000000000, 0.000000000000000000, 1.000000000000000000 ) ) ;
#300 = ORIENTED_EDGE ( 'NONE', *, *, #293, .F. ) ;
#301 = LINE ( 'NONE', #74, #235 ) ;
#302 = VECTOR ( 'NONE', #219, 1000.000000000000000 ) ;
#303 = CALENDAR_DATE ( 2020, 22, 12 ) ;
#304 = EDGE_CURVE ( 'NONE', #306, #46, #163, .T. ) ;
#305 = DIRECTION ( 'NONE',  ( 0.000000000000000000, 0.000000000000000000, 1.000000000000000000 ) ) ;
#306 = VERTEX_POINT ( 'NONE', #202 ) ;
#307 = AXIS2_PLACEMENT_3D ( 'NONE', #209, #183, #305 ) ;
#308 = APPROVAL_PERSON_ORGANIZATION ( #13, #123, #65 ) ;
#309 = CARTESIAN_POINT ( 'NONE',  ( -3.000000000000000000, 10.00000000000000000, 0.000000000000000000 ) ) ;
#310 = VECTOR ( 'NONE', #11, 1000.000000000000000 ) ;
#311 = DIRECTION ( 'NONE',  ( 0.000000000000000000, 0.000000000000000000, 1.000000000000000000 ) ) ;
#312 = VERTEX_POINT ( 'NONE', #287 ) ;
#313 = DIRECTION ( 'NONE',  ( 0.000000000000000000, 0.000000000000000000, 1.000000000000000000 ) ) ;
#314 = DIRECTION ( 'NONE',  ( 1.000000000000000000, 0.000000000000000000, 0.000000000000000000 ) ) ;
#315 = DIRECTION ( 'NONE',  ( 0.000000000000000000, 0.000000000000000000, -1.000000000000000000 ) ) ;
#316 = DIRECTION ( 'NONE',  ( 0.000000000000000000, 0.000000000000000000, 1.000000000000000000 ) ) ;
#317 = CARTESIAN_POINT ( 'NONE',  ( 2.999999999999999112, 1.224646799147353256E-15, -10.00000000000000000 ) ) ;
#318 = ADVANCED_FACE ( 'NONE', ( #83 ), #128, .F. ) ;
#319 = PERSON_AND_ORGANIZATION ( #193, #94 ) ;
#320 = DIRECTION ( 'NONE',  ( 1.000000000000000000, 0.000000000000000000, 0.000000000000000000 ) ) ;
#321 = PERSON_AND_ORGANIZATION ( #193, #94 ) ;
#322 = CIRCLE ( 'NONE', #7, 10.00000000000000000 ) ;
#323 = CARTESIAN_POINT ( 'NONE',  ( 3.000000000000000000, 0.000000000000000000, 0.000000000000000000 ) ) ;
#324 = ADVANCED_BREP_SHAPE_REPRESENTATION ( 'Q-AZHWP-20-1064-M', ( #148, #1 ), #244 ) ;
#325 = CALENDAR_DATE ( 2020, 22, 12 ) ;
#326 = EDGE_LOOP ( 'NONE', ( #24, #171 ) ) ;
#327 = CC_DESIGN_DATE_AND_TIME_ASSIGNMENT ( #99, #120, ( #177 ) ) ;
#328 = PERSON_AND_ORGANIZATION ( #193, #94 ) ;
#329 = CARTESIAN_POINT ( 'NONE',  ( 2.999999999999999112, 0.000000000000000000, 0.000000000000000000 ) ) ;
#330 = LOCAL_TIME ( 17, 7, 56.00000000000000000, #269 ) ;
#331 = ORIENTED_EDGE ( 'NONE', *, *, #304, .T. ) ;
#332 = CIRCLE ( 'NONE', #40, 10.00000000000000000 ) ;
#333 = DIRECTION ( 'NONE',  ( -1.000000000000000000, -0.000000000000000000, -0.000000000000000000 ) ) ;
#334 = AXIS2_PLACEMENT_3D ( 'NONE', #278, #335, #313 ) ;
#335 = DIRECTION ( 'NONE',  ( -1.000000000000000000, -0.000000000000000000, -0.000000000000000000 ) ) ;
ENDSEC;
END-ISO-10303-21;
